  0
SECTION
  2
HEADER
  9
$ACADVER
  1
AC1014
  9
$HANDSEED
  5
FFFF
  9
$MEASUREMENT
 70
     1
  0
ENDSEC
  0
SECTION
  2
TABLES
  0
TABLE
  2
VPORT
  5
8
330
0
100
AcDbSymbolTable
 70
     4
  0
VPORT
  5
2E
330
8
100
AcDbSymbolTableRecord
100
AcDbViewportTableRecord
  2
*ACTIVE
 70
     0
 10
0.0
 20
0.0
 11
1.0
 21
1.0
 12
210.0
 22
148.5
 13
0.0
 23
0.0
 14
10.0
 24
10.0
 15
10.0
 25
10.0
 16
0.0
 26
0.0
 36
1.0
 17
0.0
 27
0.0
 37
0.0
 40
341.0
 41
1.24
 42
50.0
 43
0.0
 44
0.0
 50
0.0
 51
0.0
 71
     0
 72
   100
 73
     1
 74
     3
 75
     0
 76
     0
 77
     0
 78
     0
  0
ENDTAB
  0
TABLE
  2
LTYPE
  5
5
330
0
100
AcDbSymbolTable
 70
     1
  0
LTYPE
  5
14
330
5
100
AcDbSymbolTableRecord
100
AcDbLinetypeTableRecord
  2
BYBLOCK
 70
     0
  3

 72
    65
 73
     0
 40
0.0
  0
LTYPE
  5
15
330
5
100
AcDbSymbolTableRecord
100
AcDbLinetypeTableRecord
  2
BYLAYER
 70
     0
  3

 72
    65
 73
     0
 40
0.0
  0
LTYPE
  5
16
330
5
100
AcDbSymbolTableRecord
100
AcDbLinetypeTableRecord
  2
CONTINUOUS
 70
     0
  3
Solid line
 72
    65
 73
     0
 40
0.0
  0
ENDTAB
  0
TABLE
  2
LAYER
  5
2
100
AcDbSymbolTable
 70
2
  0
LAYER
  5
50
100
AcDbSymbolTableRecord
100
AcDbLayerTableRecord
  2
0
 70
0
  6
CONTINUOUS
  0
LAYER
  5
51
100
AcDbSymbolTableRecord
100
AcDbLayerTableRecord
  2
Layer_1
 70
0
  6
CONTINUOUS
  0
ENDTAB
  0
TABLE
  2
STYLE
  5
3
330
0
100
AcDbSymbolTable
 70
     1
  0
STYLE
  5
11
330
3
100
AcDbSymbolTableRecord
100
AcDbTextStyleTableRecord
  2
STANDARD
 70
     0
 40
0.0
 41
1.0
 50
0.0
 71
     0
 42
2.5
  3
txt
  4

  0
ENDTAB
  0
TABLE
  2
VIEW
  5
6
330
0
100
AcDbSymbolTable
 70
     0
  0
ENDTAB
  0
TABLE
  2
UCS
  5
7
330
0
100
AcDbSymbolTable
 70
     0
  0
ENDTAB
  0
TABLE
  2
APPID
  5
9
330
0
100
AcDbSymbolTable
 70
     2
  0
APPID
  5
12
330
9
100
AcDbSymbolTableRecord
100
AcDbRegAppTableRecord
  2
ACAD
 70
     0
  0
ENDTAB
  0
TABLE
  2
DIMSTYLE
  5
A
330
0
100
AcDbSymbolTable
 70
     1
  0
DIMSTYLE
105
27
330
A
100
AcDbSymbolTableRecord
100
AcDbDimStyleTableRecord
  2
ISO-25
 70
     0
  3

  4

  5

  6

  7

 40
1.0
 41
2.5
 42
0.625
 43
3.75
 44
1.25
 45
0.0
 46
0.0
 47
0.0
 48
0.0
140
2.5
141
2.5
142
0.0
143
0.03937007874016
144
1.0
145
0.0
146
1.0
147
0.625
 71
     0
 72
     0
 73
     0
 74
     0
 75
     0
 76
     0
 77
     1
 78
     8
170
     0
171
     3
172
     1
173
     0
174
     0
175
     0
176
     0
177
     0
178
     0
270
     2
271
     2
272
     2
273
     2
274
     3
340
11
275
     0
280
     0
281
     0
282
     0
283
     0
284
     8
285
     0
286
     0
287
     3
288
     0
  0
ENDTAB
  0
TABLE
  2
BLOCK_RECORD
  5
1
330
0
100
AcDbSymbolTable
 70
     1
  0
BLOCK_RECORD
  5
1F
330
1
100
AcDbSymbolTableRecord
100
AcDbBlockTableRecord
  2
*MODEL_SPACE
  0
BLOCK_RECORD
  5
1B
330
1
100
AcDbSymbolTableRecord
100
AcDbBlockTableRecord
  2
*PAPER_SPACE
  0
ENDTAB
  0
ENDSEC
  0
SECTION
  2
BLOCKS
  0
BLOCK
  5
20
330
1F
100
AcDbEntity
  8
0
100
AcDbBlockBegin
  2
*MODEL_SPACE
 70
     0
 10
0.0
 20
0.0
 30
0.0
  3
*MODEL_SPACE
  1

  0
ENDBLK
  5
21
330
1F
100
AcDbEntity
  8
0
100
AcDbBlockEnd
  0
BLOCK
  5
1C
330
1B
100
AcDbEntity
 67
     1
  8
0
100
AcDbBlockBegin
  2
*PAPER_SPACE
  1

  0
ENDBLK
  5
1D
330
1B
100
AcDbEntity
 67
     1
  8
0
100
AcDbBlockEnd
  0
ENDSEC
  0
SECTION
  2
ENTITIES
  0
SPLINE
  5
100
100
AcDbEntity
  8
Layer_1
 62
7
100
AcDbSpline
 70
8
 71
3
 72
8
 73
4
 74
0
 40
0
 40
0
 40
0
 40
0
 40
1
 40
1
 40
1
 40
1
 10
22.333847
 20
5.164441
 30
0.0
 10
21.017506
 20
3.897319
 30
0.0
 10
19.004288
 20
3.760865
 30
0.0
 10
17.268268
 20
3.921619
 30
0.0
  0
SPLINE
  5
101
100
AcDbEntity
  8
Layer_1
 62
7
100
AcDbSpline
 70
8
 71
3
 72
8
 73
4
 74
0
 40
0
 40
0
 40
0
 40
0
 40
1
 40
1
 40
1
 40
1
 10
17.268268
 20
3.921619
 30
0.0
 10
16.144278
 20
4.102805
 30
0.0
 10
14.659695
 20
4.250182
 30
0.0
 10
14.147909
 20
5.361770
 30
0.0
  0
SPLINE
  5
102
100
AcDbEntity
  8
Layer_1
 62
7
100
AcDbSpline
 70
8
 71
3
 72
8
 73
4
 74
0
 40
0
 40
0
 40
0
 40
0
 40
1
 40
1
 40
1
 40
1
 10
14.147909
 20
5.361770
 30
0.0
 10
14.590675
 20
6.510048
 30
0.0
 10
16.141381
 20
6.657481
 30
0.0
 10
17.256828
 20
6.843663
 30
0.0
  0
SPLINE
  5
103
100
AcDbEntity
  8
Layer_1
 62
7
100
AcDbSpline
 70
8
 71
3
 72
8
 73
4
 74
0
 40
0
 40
0
 40
0
 40
0
 40
1
 40
1
 40
1
 40
1
 10
17.256828
 20
6.843663
 30
0.0
 10
21.559057
 20
7.079516
 30
0.0
 10
25.871557
 20
6.388325
 30
0.0
 10
30.164405
 20
6.074805
 30
0.0
  0
SPLINE
  5
104
100
AcDbEntity
  8
Layer_1
 62
7
100
AcDbSpline
 70
8
 71
3
 72
8
 73
4
 74
0
 40
0
 40
0
 40
0
 40
0
 40
1
 40
1
 40
1
 40
1
 10
30.164405
 20
6.074805
 30
0.0
 10
33.012431
 20
5.780729
 30
0.0
 10
35.858481
 20
5.466362
 30
0.0
 10
38.705725
 20
5.164441
 30
0.0
  0
SPLINE
  5
105
100
AcDbEntity
  8
Layer_1
 62
7
100
AcDbSpline
 70
8
 71
3
 72
8
 73
4
 74
0
 40
0
 40
0
 40
0
 40
0
 40
1
 40
1
 40
1
 40
1
 10
30.519785
 20
6.041503
 30
0.0
 10
25.594559
 20
6.827125
 30
0.0
 10
20.558702
 20
7.182809
 30
0.0
 10
15.747684
 20
8.511229
 30
0.0
  0
SPLINE
  5
106
100
AcDbEntity
  8
Layer_1
 62
7
100
AcDbSpline
 70
8
 71
3
 72
8
 73
4
 74
0
 40
0
 40
0
 40
0
 40
0
 40
1
 40
1
 40
1
 40
1
 10
15.747684
 20
8.511229
 30
0.0
 10
14.798195
 20
8.765681
 30
0.0
 10
13.321707
 20
10.018239
 30
0.0
 10
14.621506
 20
10.781848
 30
0.0
  0
SPLINE
  5
107
100
AcDbEntity
  8
Layer_1
 62
7
100
AcDbSpline
 70
8
 71
3
 72
8
 73
4
 74
0
 40
0
 40
0
 40
0
 40
0
 40
1
 40
1
 40
1
 40
1
 10
14.621506
 20
10.781848
 30
0.0
 10
16.233773
 20
11.973814
 30
0.0
 10
18.469348
 20
11.726248
 30
0.0
 10
20.388562
 20
11.712702
 30
0.0
  0
SPLINE
  5
108
100
AcDbEntity
  8
Layer_1
 62
7
100
AcDbSpline
 70
8
 71
3
 72
8
 73
4
 74
0
 40
0
 40
0
 40
0
 40
0
 40
1
 40
1
 40
1
 40
1
 10
20.388562
 20
11.712702
 30
0.0
 10
25.280903
 20
11.483424
 30
0.0
 10
30.133488
 20
10.706382
 30
0.0
 10
35.014693
 20
10.426671
 30
0.0
  0
SPLINE
  5
109
100
AcDbEntity
  8
Layer_1
 62
7
100
AcDbSpline
 70
8
 71
3
 72
8
 73
4
 74
0
 40
0
 40
0
 40
0
 40
0
 40
1
 40
1
 40
1
 40
1
 10
35.014693
 20
10.426671
 30
0.0
 10
36.263938
 20
10.468610
 30
0.0
 10
37.565361
 20
10.222794
 30
0.0
 10
38.705725
 20
10.865188
 30
0.0
  0
SPLINE
  5
10a
100
AcDbEntity
  8
Layer_1
 62
7
100
AcDbSpline
 70
8
 71
3
 72
8
 73
4
 74
0
 40
0
 40
0
 40
0
 40
0
 40
1
 40
1
 40
1
 40
1
 10
38.705725
 20
10.865188
 30
0.0
 10
38.613072
 20
11.947934
 30
0.0
 10
37.089577
 20
12.337429
 30
0.0
 10
36.175448
 20
12.667149
 30
0.0
  0
SPLINE
  5
10b
100
AcDbEntity
  8
Layer_1
 62
7
100
AcDbSpline
 70
8
 71
3
 72
8
 73
4
 74
0
 40
0
 40
0
 40
0
 40
0
 40
1
 40
1
 40
1
 40
1
 10
36.175448
 20
12.667149
 30
0.0
 10
35.069839
 20
12.943529
 30
0.0
 10
33.964234
 20
13.219938
 30
0.0
 10
32.858625
 20
13.496318
 30
0.0
  0
SPLINE
  5
10c
100
AcDbEntity
  8
Layer_1
 62
7
100
AcDbSpline
 70
8
 71
3
 72
8
 73
4
 74
0
 40
0
 40
0
 40
0
 40
0
 40
1
 40
1
 40
1
 40
1
 10
28.180946
 20
16.127419
 30
0.0
 10
27.890613
 20
14.737672
 30
0.0
 10
29.668462
 20
14.236869
 30
0.0
 10
30.713734
 20
13.898485
 30
0.0
  0
SPLINE
  5
10d
100
AcDbEntity
  8
Layer_1
 62
7
100
AcDbSpline
 70
8
 71
3
 72
8
 73
4
 74
0
 40
0
 40
0
 40
0
 40
0
 40
1
 40
1
 40
1
 40
1
 10
30.713734
 20
13.898485
 30
0.0
 10
32.995283
 20
13.337963
 30
0.0
 10
35.478147
 20
13.287135
 30
0.0
 10
37.694170
 20
14.053227
 30
0.0
  0
SPLINE
  5
10e
100
AcDbEntity
  8
Layer_1
 62
7
100
AcDbSpline
 70
8
 71
3
 72
8
 73
4
 74
0
 40
0
 40
0
 40
0
 40
0
 40
1
 40
1
 40
1
 40
1
 10
37.694170
 20
14.053227
 30
0.0
 10
39.108877
 20
14.544604
 30
0.0
 10
38.930896
 20
16.055735
 30
0.0
 10
37.600664
 20
16.517676
 30
0.0
  0
SPLINE
  5
10f
100
AcDbEntity
  8
Layer_1
 62
7
100
AcDbSpline
 70
8
 71
3
 72
8
 73
4
 74
0
 40
0
 40
0
 40
0
 40
0
 40
1
 40
1
 40
1
 40
1
 10
37.600664
 20
16.517676
 30
0.0
 10
34.982204
 20
17.641965
 30
0.0
 10
31.880787
 20
17.771025
 30
0.0
 10
29.192499
 20
16.886061
 30
0.0
  0
SPLINE
  5
110
100
AcDbEntity
  8
Layer_1
 62
7
100
AcDbSpline
 70
8
 71
3
 72
8
 73
4
 74
0
 40
0
 40
0
 40
0
 40
0
 40
1
 40
1
 40
1
 40
1
 10
29.192499
 20
16.886061
 30
0.0
 10
27.295151
 20
16.123637
 30
0.0
 10
29.236715
 20
15.530632
 30
0.0
 10
30.337015
 20
15.688902
 30
0.0
  0
SPLINE
  5
111
100
AcDbEntity
  8
Layer_1
 62
7
100
AcDbSpline
 70
8
 71
3
 72
8
 73
4
 74
0
 40
0
 40
0
 40
0
 40
0
 40
1
 40
1
 40
1
 40
1
 10
30.337015
 20
15.688902
 30
0.0
 10
32.019833
 20
15.710916
 30
0.0
 10
33.938520
 20
15.729063
 30
0.0
 10
35.197466
 20
17.004453
 30
0.0
  0
SPLINE
  5
112
100
AcDbEntity
  8
Layer_1
 62
7
100
AcDbSpline
 70
8
 71
3
 72
8
 73
4
 74
0
 40
0
 40
0
 40
0
 40
0
 40
1
 40
1
 40
1
 40
1
 10
35.197466
 20
17.004453
 30
0.0
 10
35.604862
 20
18.344557
 30
0.0
 10
34.420471
 20
19.123095
 30
0.0
 10
33.288986
 20
19.474180
 30
0.0
  0
SPLINE
  5
113
100
AcDbEntity
  8
Layer_1
 62
7
100
AcDbSpline
 70
8
 71
3
 72
8
 73
4
 74
0
 40
0
 40
0
 40
0
 40
0
 40
1
 40
1
 40
1
 40
1
 10
33.288986
 20
19.474180
 30
0.0
 10
33.145532
 20
19.527999
 30
0.0
 10
33.002079
 20
19.581791
 30
0.0
 10
32.858625
 20
19.635583
 30
0.0
  0
SPLINE
  5
114
100
AcDbEntity
  8
Layer_1
 62
7
100
AcDbSpline
 70
8
 71
3
 72
8
 73
4
 74
0
 40
0
 40
0
 40
0
 40
0
 40
1
 40
1
 40
1
 40
1
 10
32.858625
 20
19.635583
 30
0.0
 10
30.920837
 20
20.125549
 30
0.0
 10
28.987431
 20
20.635581
 30
0.0
 10
27.011526
 20
20.951133
 30
0.0
  0
SPLINE
  5
115
100
AcDbEntity
  8
Layer_1
 62
7
100
AcDbSpline
 70
8
 71
3
 72
8
 73
4
 74
0
 40
0
 40
0
 40
0
 40
0
 40
1
 40
1
 40
1
 40
1
 10
27.011526
 20
20.951133
 30
0.0
 10
28.186147
 20
20.994652
 30
0.0
 10
29.910789
 20
20.488119
 30
0.0
 10
29.350366
 20
22.266684
 30
0.0
  0
SPLINE
  5
116
100
AcDbEntity
  8
Layer_1
 62
7
100
AcDbSpline
 70
8
 71
3
 72
8
 73
4
 74
0
 40
0
 40
0
 40
0
 40
0
 40
1
 40
1
 40
1
 40
1
 10
29.350366
 20
22.266684
 30
0.0
 10
32.016565
 20
23.466749
 30
0.0
 10
34.964235
 20
21.988497
 30
0.0
 10
37.721069
 20
22.335969
 30
0.0
  0
SPLINE
  5
117
100
AcDbEntity
  8
Layer_1
 62
7
100
AcDbSpline
 70
8
 71
3
 72
8
 73
4
 74
0
 40
0
 40
0
 40
0
 40
0
 40
1
 40
1
 40
1
 40
1
 10
37.721069
 20
22.335969
 30
0.0
 10
39.577766
 20
22.517100
 30
0.0
 10
38.182367
 20
23.877270
 30
0.0
 10
37.166770
 20
24.159323
 30
0.0
  0
SPLINE
  5
118
100
AcDbEntity
  8
Layer_1
 62
7
100
AcDbSpline
 70
8
 71
3
 72
8
 73
4
 74
0
 40
0
 40
0
 40
0
 40
0
 40
1
 40
1
 40
1
 40
1
 10
37.166770
 20
24.159323
 30
0.0
 10
35.781736
 20
24.706777
 30
0.0
 10
34.289876
 20
24.934672
 30
0.0
 10
32.858625
 20
25.336330
 30
0.0
  0
SPLINE
  5
119
100
AcDbEntity
  8
Layer_1
 62
7
100
AcDbSpline
 70
8
 71
3
 72
8
 73
4
 74
0
 40
0
 40
0
 40
0
 40
0
 40
1
 40
1
 40
1
 40
1
 10
32.858625
 20
25.336330
 30
0.0
 10
27.081207
 20
26.658654
 30
0.0
 10
21.297342
 20
28.490277
 30
0.0
 10
15.317329
 20
28.405949
 30
0.0
  0
SPLINE
  5
11a
100
AcDbEntity
  8
Layer_1
 62
7
100
AcDbSpline
 70
8
 71
3
 72
8
 73
4
 74
0
 40
0
 40
0
 40
0
 40
0
 40
1
 40
1
 40
1
 40
1
 10
15.317329
 20
28.405949
 30
0.0
 10
13.293437
 20
28.255101
 30
0.0
 10
15.000096
 20
27.007707
 30
0.0
 10
16.093128
 20
26.944941
 30
0.0
  0
SPLINE
  5
11b
100
AcDbEntity
  8
Layer_1
 62
7
100
AcDbSpline
 70
8
 71
3
 72
8
 73
4
 74
0
 40
0
 40
0
 40
0
 40
0
 40
1
 40
1
 40
1
 40
1
 10
16.093128
 20
26.944941
 30
0.0
 10
21.242687
 20
26.083260
 30
0.0
 10
26.495230
 20
25.984030
 30
0.0
 10
31.703761
 20
25.774847
 30
0.0
  0
SPLINE
  5
11c
100
AcDbEntity
  8
Layer_1
 62
7
100
AcDbSpline
 70
8
 71
3
 72
8
 73
4
 74
0
 40
0
 40
0
 40
0
 40
0
 40
1
 40
1
 40
1
 40
1
 10
31.703761
 20
25.774847
 30
0.0
 10
33.821819
 20
25.904190
 30
0.0
 10
36.034802
 20
25.510038
 30
0.0
 10
38.090602
 20
25.982704
 30
0.0
  0
SPLINE
  5
11d
100
AcDbEntity
  8
Layer_1
 62
7
100
AcDbSpline
 70
8
 71
3
 72
8
 73
4
 74
0
 40
0
 40
0
 40
0
 40
0
 40
1
 40
1
 40
1
 40
1
 10
38.090602
 20
25.982704
 30
0.0
 10
39.692171
 20
26.394720
 30
0.0
 10
37.539569
 20
27.629386
 30
0.0
 10
36.797240
 20
27.806057
 30
0.0
  0
SPLINE
  5
11e
100
AcDbEntity
  8
Layer_1
 62
7
100
AcDbSpline
 70
8
 71
3
 72
8
 73
4
 74
0
 40
0
 40
0
 40
0
 40
0
 40
1
 40
1
 40
1
 40
1
 10
36.797240
 20
27.806057
 30
0.0
 10
34.091296
 20
28.949791
 30
0.0
 10
31.069229
 20
28.843845
 30
0.0
 10
28.180946
 20
28.844465
 30
0.0
  0
SPLINE
  5
11f
100
AcDbEntity
  8
Layer_1
 62
7
100
AcDbSpline
 70
8
 71
3
 72
8
 73
4
 74
0
 40
0
 40
0
 40
0
 40
0
 40
1
 40
1
 40
1
 40
1
 10
28.180946
 20
28.844465
 30
0.0
 10
30.127030
 20
29.149632
 30
0.0
 10
32.195996
 20
28.920637
 30
0.0
 10
34.028044
 20
29.721499
 30
0.0
  0
SPLINE
  5
120
100
AcDbEntity
  8
Layer_1
 62
7
100
AcDbSpline
 70
8
 71
3
 72
8
 73
4
 74
0
 40
0
 40
0
 40
0
 40
0
 40
1
 40
1
 40
1
 40
1
 10
34.028044
 20
29.721499
 30
0.0
 10
34.318332
 20
30.714780
 30
0.0
 10
33.503870
 20
30.946795
 30
0.0
 10
32.858625
 20
31.475595
 30
0.0
  0
SPLINE
  5
121
100
AcDbEntity
  8
Layer_1
 62
7
100
AcDbSpline
 70
8
 71
3
 72
8
 73
4
 74
0
 40
0
 40
0
 40
0
 40
0
 40
1
 40
1
 40
1
 40
1
 10
36.366885
 20
31.914112
 30
0.0
 10
34.439214
 20
33.631011
 30
0.0
 10
31.610029
 20
33.803900
 30
0.0
 10
29.165601
 20
33.598894
 30
0.0
  0
SPLINE
  5
122
100
AcDbEntity
  8
Layer_1
 62
7
100
AcDbSpline
 70
8
 71
3
 72
8
 73
4
 74
0
 40
0
 40
0
 40
0
 40
0
 40
1
 40
1
 40
1
 40
1
 10
29.165601
 20
33.598894
 30
0.0
 10
27.320192
 20
33.458234
 30
0.0
 10
28.681138
 20
31.974536
 30
0.0
 10
29.738266
 20
31.841383
 30
0.0
  0
SPLINE
  5
123
100
AcDbEntity
  8
Layer_1
 62
7
100
AcDbSpline
 70
8
 71
3
 72
8
 73
4
 74
0
 40
0
 40
0
 40
0
 40
0
 40
1
 40
1
 40
1
 40
1
 10
29.738266
 20
31.841383
 30
0.0
 10
32.295657
 20
31.259780
 30
0.0
 10
34.985661
 20
31.330363
 30
0.0
 10
37.536303
 20
31.914112
 30
0.0
  0
SPLINE
  5
124
100
AcDbEntity
  8
Layer_1
 62
7
100
AcDbSpline
 70
8
 71
3
 72
8
 73
4
 74
0
 40
0
 40
0
 40
0
 40
0
 40
1
 40
1
 40
1
 40
1
 10
37.536303
 20
31.914112
 30
0.0
 10
38.806526
 20
32.362930
 30
0.0
 10
39.216386
 20
33.859329
 30
0.0
 10
37.758531
 20
34.378561
 30
0.0
  0
SPLINE
  5
125
100
AcDbEntity
  8
Layer_1
 62
7
100
AcDbSpline
 70
8
 71
3
 72
8
 73
4
 74
0
 40
0
 40
0
 40
0
 40
0
 40
1
 40
1
 40
1
 40
1
 10
37.758531
 20
34.378561
 30
0.0
 10
36.277917
 20
35.217862
 30
0.0
 10
34.477147
 20
35.372378
 30
0.0
 10
32.858625
 20
35.860764
 30
0.0
  0
SPLINE
  5
126
100
AcDbEntity
  8
Layer_1
 62
7
100
AcDbSpline
 70
8
 71
3
 72
8
 73
4
 74
0
 40
0
 40
0
 40
0
 40
0
 40
1
 40
1
 40
1
 40
1
 10
32.858625
 20
35.860792
 30
0.0
 10
30.920837
 20
36.350758
 30
0.0
 10
28.987431
 20
36.860790
 30
0.0
 10
27.011526
 20
37.176343
 30
0.0
  0
SPLINE
  5
127
100
AcDbEntity
  8
Layer_1
 62
7
100
AcDbSpline
 70
8
 71
3
 72
8
 73
4
 74
0
 40
0
 40
0
 40
0
 40
0
 40
1
 40
1
 40
1
 40
1
 10
27.011526
 20
37.176343
 30
0.0
 10
28.186147
 20
37.219861
 30
0.0
 10
29.910789
 20
36.713329
 30
0.0
 10
29.350366
 20
38.491893
 30
0.0
  0
SPLINE
  5
128
100
AcDbEntity
  8
Layer_1
 62
7
100
AcDbSpline
 70
8
 71
3
 72
8
 73
4
 74
0
 40
0
 40
0
 40
0
 40
0
 40
1
 40
1
 40
1
 40
1
 10
29.350366
 20
38.491893
 30
0.0
 10
32.016565
 20
39.691959
 30
0.0
 10
34.964235
 20
38.213707
 30
0.0
 10
37.721069
 20
38.561179
 30
0.0
  0
SPLINE
  5
129
100
AcDbEntity
  8
Layer_1
 62
7
100
AcDbSpline
 70
8
 71
3
 72
8
 73
4
 74
0
 40
0
 40
0
 40
0
 40
0
 40
1
 40
1
 40
1
 40
1
 10
37.721069
 20
38.561179
 30
0.0
 10
39.577766
 20
38.742309
 30
0.0
 10
38.182367
 20
40.102479
 30
0.0
 10
37.166770
 20
40.384532
 30
0.0
  0
SPLINE
  5
12a
100
AcDbEntity
  8
Layer_1
 62
7
100
AcDbSpline
 70
8
 71
3
 72
8
 73
4
 74
0
 40
0
 40
0
 40
0
 40
0
 40
1
 40
1
 40
1
 40
1
 10
37.166770
 20
40.384532
 30
0.0
 10
35.781736
 20
40.931987
 30
0.0
 10
34.289876
 20
41.159881
 30
0.0
 10
32.858625
 20
41.561540
 30
0.0
  0
SPLINE
  5
12b
100
AcDbEntity
  8
Layer_1
 62
7
100
AcDbSpline
 70
8
 71
3
 72
8
 73
4
 74
0
 40
0
 40
0
 40
0
 40
0
 40
1
 40
1
 40
1
 40
1
 10
32.858625
 20
41.561512
 30
0.0
 10
30.161583
 20
42.306127
 30
0.0
 10
27.424470
 20
42.821323
 30
0.0
 10
24.672687
 20
43.315579
 30
0.0
  0
SPLINE
  5
12c
100
AcDbEntity
  8
Layer_1
 62
7
100
AcDbSpline
 70
8
 71
3
 72
8
 73
4
 74
0
 40
0
 40
0
 40
0
 40
0
 40
1
 40
1
 40
1
 40
1
 10
14.147909
 20
44.631130
 30
0.0
 10
21.363277
 20
43.778508
 30
0.0
 10
28.566468
 20
42.730307
 30
0.0
 10
35.789455
 20
42.000029
 30
0.0
  0
SPLINE
  5
12d
100
AcDbEntity
  8
Layer_1
 62
7
100
AcDbSpline
 70
8
 71
3
 72
8
 73
4
 74
0
 40
0
 40
0
 40
0
 40
0
 40
1
 40
1
 40
1
 40
1
 10
35.789455
 20
42.000029
 30
0.0
 10
36.725885
 20
42.060001
 30
0.0
 10
38.778490
 20
41.697345
 30
0.0
 10
38.705725
 20
43.030535
 30
0.0
  0
SPLINE
  5
12e
100
AcDbEntity
  8
Layer_1
 62
7
100
AcDbSpline
 70
8
 71
3
 72
8
 73
4
 74
0
 40
0
 40
0
 40
0
 40
0
 40
1
 40
1
 40
1
 40
1
 10
38.705725
 20
43.030535
 30
0.0
 10
38.190850
 20
44.252924
 30
0.0
 10
36.458508
 20
44.599803
 30
0.0
 10
35.218257
 20
44.918291
 30
0.0
  0
SPLINE
  5
12f
100
AcDbEntity
  8
Layer_1
 62
7
100
AcDbSpline
 70
8
 71
3
 72
8
 73
4
 74
0
 40
0
 40
0
 40
0
 40
0
 40
1
 40
1
 40
1
 40
1
 10
35.218257
 20
44.918291
 30
0.0
 10
34.431712
 20
45.114915
 30
0.0
 10
33.645170
 20
45.311539
 30
0.0
 10
32.858625
 20
45.508164
 30
0.0
  0
SPLINE
  5
130
100
AcDbEntity
  8
Layer_1
 62
7
100
AcDbSpline
 70
8
 71
3
 72
8
 73
4
 74
0
 40
0
 40
0
 40
0
 40
0
 40
1
 40
1
 40
1
 40
1
 10
23.503267
 20
42.000029
 30
0.0
 10
23.503267
 20
43.023225
 30
0.0
 10
23.503267
 20
44.046450
 30
0.0
 10
23.503267
 20
45.069647
 30
0.0
  0
SPLINE
  5
131
100
AcDbEntity
  8
Layer_1
 62
7
100
AcDbSpline
 70
8
 71
3
 72
8
 73
4
 74
0
 40
0
 40
0
 40
0
 40
0
 40
1
 40
1
 40
1
 40
1
 10
22.333847
 20
54.717075
 30
0.0
 10
21.017506
 20
53.449953
 30
0.0
 10
19.004288
 20
53.313499
 30
0.0
 10
17.268268
 20
53.474253
 30
0.0
  0
SPLINE
  5
132
100
AcDbEntity
  8
Layer_1
 62
7
100
AcDbSpline
 70
8
 71
3
 72
8
 73
4
 74
0
 40
0
 40
0
 40
0
 40
0
 40
1
 40
1
 40
1
 40
1
 10
17.268268
 20
53.474253
 30
0.0
 10
16.144278
 20
53.655439
 30
0.0
 10
14.659695
 20
53.802816
 30
0.0
 10
14.147909
 20
54.914405
 30
0.0
  0
SPLINE
  5
133
100
AcDbEntity
  8
Layer_1
 62
7
100
AcDbSpline
 70
8
 71
3
 72
8
 73
4
 74
0
 40
0
 40
0
 40
0
 40
0
 40
1
 40
1
 40
1
 40
1
 10
14.147909
 20
54.914405
 30
0.0
 10
14.590708
 20
56.062682
 30
0.0
 10
16.141371
 20
56.210115
 30
0.0
 10
17.256828
 20
56.396297
 30
0.0
  0
SPLINE
  5
134
100
AcDbEntity
  8
Layer_1
 62
7
100
AcDbSpline
 70
8
 71
3
 72
8
 73
4
 74
0
 40
0
 40
0
 40
0
 40
0
 40
1
 40
1
 40
1
 40
1
 10
17.256828
 20
56.396297
 30
0.0
 10
23.281705
 20
56.605029
 30
0.0
 10
29.333091
 20
56.181949
 30
0.0
 10
35.367714
 20
56.116107
 30
0.0
  0
SPLINE
  5
135
100
AcDbEntity
  8
Layer_1
 62
7
100
AcDbSpline
 70
8
 71
3
 72
8
 73
4
 74
0
 40
0
 40
0
 40
0
 40
0
 40
1
 40
1
 40
1
 40
1
 10
35.367714
 20
56.116107
 30
0.0
 10
36.480383
 20
56.088167
 30
0.0
 10
37.593056
 20
56.060481
 30
0.0
 10
38.705725
 20
56.032654
 30
0.0
  0
SPLINE
  5
136
100
AcDbEntity
  8
Layer_1
 62
7
100
AcDbSpline
 70
8
 71
3
 72
8
 73
4
 74
0
 40
0
 40
0
 40
0
 40
0
 40
1
 40
1
 40
1
 40
1
 10
14.147909
 20
60.417823
 30
0.0
 10
22.333848
 20
58.956109
 30
0.0
 10
30.519788
 20
57.494367
 30
0.0
 10
38.705725
 20
56.032654
 30
0.0
  0
SPLINE
  5
137
100
AcDbEntity
  8
Layer_1
 62
7
100
AcDbSpline
 70
8
 71
3
 72
8
 73
4
 74
0
 40
0
 40
0
 40
0
 40
0
 40
1
 40
1
 40
1
 40
1
 10
14.147909
 20
60.417823
 30
0.0
 10
22.333848
 20
60.125469
 30
0.0
 10
30.519788
 20
59.833143
 30
0.0
 10
38.705725
 20
59.540789
 30
0.0
  0
SPLINE
  5
138
100
AcDbEntity
  8
Layer_1
 62
7
100
AcDbSpline
 70
8
 71
3
 72
8
 73
4
 74
0
 40
0
 40
0
 40
0
 40
0
 40
1
 40
1
 40
1
 40
1
 10
14.147909
 20
65.680053
 30
0.0
 10
16.068941
 20
64.130907
 30
0.0
 10
18.602337
 20
63.633914
 30
0.0
 10
20.915144
 20
62.899798
 30
0.0
  0
SPLINE
  5
139
100
AcDbEntity
  8
Layer_1
 62
7
100
AcDbSpline
 70
8
 71
3
 72
8
 73
4
 74
0
 40
0
 40
0
 40
0
 40
0
 40
1
 40
1
 40
1
 40
1
 10
20.915144
 20
62.899798
 30
0.0
 10
26.721812
 20
61.270359
 30
0.0
 10
32.769477
 20
60.558341
 30
0.0
 10
38.705725
 20
59.540789
 30
0.0
  0
SPLINE
  5
13a
100
AcDbEntity
  8
Layer_1
 62
7
100
AcDbSpline
 70
8
 71
3
 72
8
 73
4
 74
0
 40
0
 40
0
 40
0
 40
0
 40
1
 40
1
 40
1
 40
1
 10
22.333847
 20
66.118570
 30
0.0
 10
25.575131
 20
65.905436
 30
0.0
 10
22.104823
 20
67.368363
 30
0.0
 10
22.333847
 20
66.118570
 30
0.0
  0
SPLINE
  5
13b
100
AcDbEntity
  8
Layer_1
 62
7
100
AcDbSpline
 70
8
 71
3
 72
8
 73
4
 74
0
 40
0
 40
0
 40
0
 40
0
 40
1
 40
1
 40
1
 40
1
 10
32.858625
 20
64.803020
 30
0.0
 10
31.299398
 20
65.095374
 30
0.0
 10
29.740171
 20
65.387699
 30
0.0
 10
28.180946
 20
65.680053
 30
0.0
  0
SPLINE
  5
13c
100
AcDbEntity
  8
Layer_1
 62
7
100
AcDbSpline
 70
8
 71
3
 72
8
 73
4
 74
0
 40
0
 40
0
 40
0
 40
0
 40
1
 40
1
 40
1
 40
1
 10
28.180946
 20
65.680053
 30
0.0
 10
31.355053
 20
65.406016
 30
0.0
 10
34.539166
 20
64.569424
 30
0.0
 10
37.721069
 20
64.872305
 30
0.0
  0
SPLINE
  5
13d
100
AcDbEntity
  8
Layer_1
 62
7
100
AcDbSpline
 70
8
 71
3
 72
8
 73
4
 74
0
 40
0
 40
0
 40
0
 40
0
 40
1
 40
1
 40
1
 40
1
 10
37.721069
 20
64.872305
 30
0.0
 10
39.577766
 20
65.053435
 30
0.0
 10
38.182367
 20
66.413605
 30
0.0
 10
37.166770
 20
66.695658
 30
0.0
  0
SPLINE
  5
13e
100
AcDbEntity
  8
Layer_1
 62
7
100
AcDbSpline
 70
8
 71
3
 72
8
 73
4
 74
0
 40
0
 40
0
 40
0
 40
0
 40
1
 40
1
 40
1
 40
1
 10
37.166770
 20
66.695658
 30
0.0
 10
35.781739
 20
67.243113
 30
0.0
 10
34.289876
 20
67.471007
 30
0.0
 10
32.858625
 20
67.872638
 30
0.0
  0
SPLINE
  5
13f
100
AcDbEntity
  8
Layer_1
 62
7
100
AcDbSpline
 70
8
 71
3
 72
8
 73
4
 74
0
 40
0
 40
0
 40
0
 40
0
 40
1
 40
1
 40
1
 40
1
 10
31.689207
 20
71.819324
 30
0.0
 10
30.457126
 20
71.561243
 30
0.0
 10
28.775550
 20
71.552675
 30
0.0
 10
28.180946
 20
70.306438
 30
0.0
  0
SPLINE
  5
140
100
AcDbEntity
  8
Layer_1
 62
7
100
AcDbSpline
 70
8
 71
3
 72
8
 73
4
 74
0
 40
0
 40
0
 40
0
 40
0
 40
1
 40
1
 40
1
 40
1
 10
28.180946
 20
70.306438
 30
0.0
 10
28.038846
 20
69.046033
 30
0.0
 10
29.739522
 20
68.603396
 30
0.0
 10
30.713734
 20
68.274833
 30
0.0
  0
SPLINE
  5
141
100
AcDbEntity
  8
Layer_1
 62
7
100
AcDbSpline
 70
8
 71
3
 72
8
 73
4
 74
0
 40
0
 40
0
 40
0
 40
0
 40
1
 40
1
 40
1
 40
1
 10
30.713734
 20
68.274833
 30
0.0
 10
32.995283
 20
67.714311
 30
0.0
 10
35.478147
 20
67.663483
 30
0.0
 10
37.694170
 20
68.429575
 30
0.0
  0
SPLINE
  5
142
100
AcDbEntity
  8
Layer_1
 62
7
100
AcDbSpline
 70
8
 71
3
 72
8
 73
4
 74
0
 40
0
 40
0
 40
0
 40
0
 40
1
 40
1
 40
1
 40
1
 10
37.694170
 20
68.429575
 30
0.0
 10
39.108877
 20
68.920952
 30
0.0
 10
38.930896
 20
70.432083
 30
0.0
 10
37.600664
 20
70.894024
 30
0.0
  0
SPLINE
  5
143
100
AcDbEntity
  8
Layer_1
 62
7
100
AcDbSpline
 70
8
 71
3
 72
8
 73
4
 74
0
 40
0
 40
0
 40
0
 40
0
 40
1
 40
1
 40
1
 40
1
 10
37.600664
 20
70.894024
 30
0.0
 10
37.214632
 20
71.096970
 30
0.0
 10
36.771820
 20
71.211411
 30
0.0
 10
36.366885
 20
71.380804
 30
0.0
  0
SPLINE
  5
144
100
AcDbEntity
  8
Layer_1
 62
7
100
AcDbSpline
 70
8
 71
3
 72
8
 73
4
 74
0
 40
0
 40
0
 40
0
 40
0
 40
1
 40
1
 40
1
 40
1
 10
28.180946
 20
72.257843
 30
0.0
 10
35.869172
 20
71.475447
 30
0.0
 10
43.545481
 20
70.516270
 30
0.0
 10
51.170002
 20
69.263090
 30
0.0
  0
SPLINE
  5
145
100
AcDbEntity
  8
Layer_1
 62
7
100
AcDbSpline
 70
8
 71
3
 72
8
 73
4
 74
0
 40
0
 40
0
 40
0
 40
0
 40
1
 40
1
 40
1
 40
1
 10
51.170002
 20
69.263090
 30
0.0
 10
52.477577
 20
68.996390
 30
0.0
 10
53.184140
 20
67.876053
 30
0.0
 10
51.372011
 20
67.872666
 30
0.0
  0
SPLINE
  5
146
100
AcDbEntity
  8
Layer_1
 62
7
100
AcDbSpline
 70
8
 71
3
 72
8
 73
4
 74
0
 40
0
 40
0
 40
0
 40
0
 40
1
 40
1
 40
1
 40
1
 10
51.372011
 20
67.872666
 30
0.0
 10
48.426898
 20
67.788592
 30
0.0
 10
45.453506
 20
68.161210
 30
0.0
 10
42.765986
 20
69.419752
 30
0.0
  0
SPLINE
  5
147
100
AcDbEntity
  8
Layer_1
 62
7
100
AcDbSpline
 70
8
 71
3
 72
8
 73
4
 74
0
 40
0
 40
0
 40
0
 40
0
 40
1
 40
1
 40
1
 40
1
 10
42.765986
 20
69.419752
 30
0.0
 10
39.810555
 20
70.643975
 30
0.0
 10
37.483212
 20
73.061660
 30
0.0
 10
34.334458
 20
73.897015
 30
0.0
  0
SPLINE
  5
148
100
AcDbEntity
  8
Layer_1
 62
7
100
AcDbSpline
 70
8
 71
3
 72
8
 73
4
 74
0
 40
0
 40
0
 40
0
 40
0
 40
1
 40
1
 40
1
 40
1
 10
34.334458
 20
73.897015
 30
0.0
 10
33.842514
 20
74.081490
 30
0.0
 10
33.350570
 20
74.265962
 30
0.0
 10
32.858625
 20
74.450436
 30
0.0
  0
SPLINE
  5
149
100
AcDbEntity
  8
Layer_1
 62
7
100
AcDbSpline
 70
8
 71
3
 72
8
 73
4
 74
0
 40
0
 40
0
 40
0
 40
0
 40
1
 40
1
 40
1
 40
1
 10
32.858625
 20
74.450431
 30
0.0
 10
27.081209
 20
75.772769
 30
0.0
 10
21.297344
 20
77.604394
 30
0.0
 10
15.317329
 20
77.520063
 30
0.0
  0
SPLINE
  5
14a
100
AcDbEntity
  8
Layer_1
 62
7
100
AcDbSpline
 70
8
 71
3
 72
8
 73
4
 74
0
 40
0
 40
0
 40
0
 40
0
 40
1
 40
1
 40
1
 40
1
 10
15.317329
 20
77.520063
 30
0.0
 10
13.293437
 20
77.369218
 30
0.0
 10
15.000096
 20
76.121801
 30
0.0
 10
16.093128
 20
76.059049
 30
0.0
  0
SPLINE
  5
14b
100
AcDbEntity
  8
Layer_1
 62
7
100
AcDbSpline
 70
8
 71
3
 72
8
 73
4
 74
0
 40
0
 40
0
 40
0
 40
0
 40
1
 40
1
 40
1
 40
1
 10
16.093128
 20
76.059049
 30
0.0
 10
21.242687
 20
75.197377
 30
0.0
 10
26.495230
 20
75.098142
 30
0.0
 10
31.703761
 20
74.888950
 30
0.0
  0
SPLINE
  5
14c
100
AcDbEntity
  8
Layer_1
 62
7
100
AcDbSpline
 70
8
 71
3
 72
8
 73
4
 74
0
 40
0
 40
0
 40
0
 40
0
 40
1
 40
1
 40
1
 40
1
 10
31.703761
 20
74.888950
 30
0.0
 10
33.821819
 20
75.018290
 30
0.0
 10
36.034802
 20
74.624127
 30
0.0
 10
38.090602
 20
75.096807
 30
0.0
  0
SPLINE
  5
14d
100
AcDbEntity
  8
Layer_1
 62
7
100
AcDbSpline
 70
8
 71
3
 72
8
 73
4
 74
0
 40
0
 40
0
 40
0
 40
0
 40
1
 40
1
 40
1
 40
1
 10
38.090602
 20
75.096807
 30
0.0
 10
39.692171
 20
75.508812
 30
0.0
 10
37.539572
 20
76.743489
 30
0.0
 10
36.797240
 20
76.920166
 30
0.0
  0
SPLINE
  5
14e
100
AcDbEntity
  8
Layer_1
 62
7
100
AcDbSpline
 70
8
 71
3
 72
8
 73
4
 74
0
 40
0
 40
0
 40
0
 40
0
 40
1
 40
1
 40
1
 40
1
 10
36.797240
 20
76.920166
 30
0.0
 10
34.091299
 20
78.063908
 30
0.0
 10
31.069229
 20
77.957956
 30
0.0
 10
28.180946
 20
77.958583
 30
0.0
  0
SPLINE
  5
14f
100
AcDbEntity
  8
Layer_1
 62
7
100
AcDbSpline
 70
8
 71
3
 72
8
 73
4
 74
0
 40
0
 40
0
 40
0
 40
0
 40
1
 40
1
 40
1
 40
1
 10
28.180946
 20
77.958583
 30
0.0
 10
30.127030
 20
78.263741
 30
0.0
 10
32.195996
 20
78.034763
 30
0.0
 10
34.028044
 20
78.835622
 30
0.0
  0
SPLINE
  5
150
100
AcDbEntity
  8
Layer_1
 62
7
100
AcDbSpline
 70
8
 71
3
 72
8
 73
4
 74
0
 40
0
 40
0
 40
0
 40
0
 40
1
 40
1
 40
1
 40
1
 10
34.028044
 20
78.835622
 30
0.0
 10
34.318332
 20
79.828912
 30
0.0
 10
33.503881
 20
80.060910
 30
0.0
 10
32.858625
 20
80.589695
 30
0.0
  0
SPLINE
  5
151
100
AcDbEntity
  8
Layer_1
 62
7
100
AcDbSpline
 70
8
 71
3
 72
8
 73
4
 74
0
 40
0
 40
0
 40
0
 40
0
 40
1
 40
1
 40
1
 40
1
 10
36.366885
 20
81.028215
 30
0.0
 10
34.439214
 20
82.745105
 30
0.0
 10
31.610029
 20
82.918026
 30
0.0
 10
29.165601
 20
82.713006
 30
0.0
  0
SPLINE
  5
152
100
AcDbEntity
  8
Layer_1
 62
7
100
AcDbSpline
 70
8
 71
3
 72
8
 73
4
 74
0
 40
0
 40
0
 40
0
 40
0
 40
1
 40
1
 40
1
 40
1
 10
29.165601
 20
82.713006
 30
0.0
 10
27.320192
 20
82.572332
 30
0.0
 10
28.681135
 20
81.088650
 30
0.0
 10
29.738266
 20
80.955486
 30
0.0
  0
SPLINE
  5
153
100
AcDbEntity
  8
Layer_1
 62
7
100
AcDbSpline
 70
8
 71
3
 72
8
 73
4
 74
0
 40
0
 40
0
 40
0
 40
0
 40
1
 40
1
 40
1
 40
1
 10
29.738266
 20
80.955486
 30
0.0
 10
32.295657
 20
80.373880
 30
0.0
 10
34.985664
 20
80.444475
 30
0.0
 10
37.536303
 20
81.028215
 30
0.0
  0
SPLINE
  5
154
100
AcDbEntity
  8
Layer_1
 62
7
100
AcDbSpline
 70
8
 71
3
 72
8
 73
4
 74
0
 40
0
 40
0
 40
0
 40
0
 40
1
 40
1
 40
1
 40
1
 10
37.536303
 20
81.028215
 30
0.0
 10
38.806526
 20
81.477036
 30
0.0
 10
39.216389
 20
82.973449
 30
0.0
 10
37.758531
 20
83.492661
 30
0.0
  0
SPLINE
  5
155
100
AcDbEntity
  8
Layer_1
 62
7
100
AcDbSpline
 70
8
 71
3
 72
8
 73
4
 74
0
 40
0
 40
0
 40
0
 40
0
 40
1
 40
1
 40
1
 40
1
 10
37.758531
 20
83.492661
 30
0.0
 10
36.277920
 20
84.331985
 30
0.0
 10
34.477147
 20
84.486490
 30
0.0
 10
32.858625
 20
84.974884
 30
0.0
  0
SPLINE
  5
156
100
AcDbEntity
  8
Layer_1
 62
7
100
AcDbSpline
 70
8
 71
3
 72
8
 73
4
 74
0
 40
0
 40
0
 40
0
 40
0
 40
1
 40
1
 40
1
 40
1
 10
32.858625
 20
84.974884
 30
0.0
 10
27.081207
 20
86.297216
 30
0.0
 10
21.297343
 20
88.128844
 30
0.0
 10
15.317329
 20
88.044516
 30
0.0
  0
SPLINE
  5
157
100
AcDbEntity
  8
Layer_1
 62
7
100
AcDbSpline
 70
8
 71
3
 72
8
 73
4
 74
0
 40
0
 40
0
 40
0
 40
0
 40
1
 40
1
 40
1
 40
1
 10
15.317329
 20
88.044516
 30
0.0
 10
13.293438
 20
87.893669
 30
0.0
 10
15.000095
 20
86.646255
 30
0.0
 10
16.093128
 20
86.583503
 30
0.0
  0
SPLINE
  5
158
100
AcDbEntity
  8
Layer_1
 62
7
100
AcDbSpline
 70
8
 71
3
 72
8
 73
4
 74
0
 40
0
 40
0
 40
0
 40
0
 40
1
 40
1
 40
1
 40
1
 10
16.093128
 20
86.583503
 30
0.0
 10
21.242686
 20
85.721825
 30
0.0
 10
26.495230
 20
85.622595
 30
0.0
 10
31.703761
 20
85.413404
 30
0.0
  0
SPLINE
  5
159
100
AcDbEntity
  8
Layer_1
 62
7
100
AcDbSpline
 70
8
 71
3
 72
8
 73
4
 74
0
 40
0
 40
0
 40
0
 40
0
 40
1
 40
1
 40
1
 40
1
 10
31.703761
 20
85.413404
 30
0.0
 10
33.821819
 20
85.542743
 30
0.0
 10
36.034802
 20
85.148580
 30
0.0
 10
38.090602
 20
85.621258
 30
0.0
  0
SPLINE
  5
15a
100
AcDbEntity
  8
Layer_1
 62
7
100
AcDbSpline
 70
8
 71
3
 72
8
 73
4
 74
0
 40
0
 40
0
 40
0
 40
0
 40
1
 40
1
 40
1
 40
1
 10
38.090602
 20
85.621258
 30
0.0
 10
39.692174
 20
86.033262
 30
0.0
 10
37.539569
 20
87.267940
 30
0.0
 10
36.797240
 20
87.444619
 30
0.0
  0
SPLINE
  5
15b
100
AcDbEntity
  8
Layer_1
 62
7
100
AcDbSpline
 70
8
 71
3
 72
8
 73
4
 74
0
 40
0
 40
0
 40
0
 40
0
 40
1
 40
1
 40
1
 40
1
 10
36.797240
 20
87.444619
 30
0.0
 10
35.516704
 20
87.886754
 30
0.0
 10
34.165368
 20
88.123146
 30
0.0
 10
32.858625
 20
88.483036
 30
0.0
  0
SPLINE
  5
15c
100
AcDbEntity
  8
Layer_1
 62
7
100
AcDbSpline
 70
8
 71
3
 72
8
 73
4
 74
0
 40
0
 40
0
 40
0
 40
0
 40
1
 40
1
 40
1
 40
1
 10
32.858625
 20
88.483033
 30
0.0
 10
30.920837
 20
88.973005
 30
0.0
 10
28.987431
 20
89.483034
 30
0.0
 10
27.011526
 20
89.798590
 30
0.0
  0
SPLINE
  5
15d
100
AcDbEntity
  8
Layer_1
 62
7
100
AcDbSpline
 70
8
 71
3
 72
8
 73
4
 74
0
 40
0
 40
0
 40
0
 40
0
 40
1
 40
1
 40
1
 40
1
 10
27.011526
 20
89.798590
 30
0.0
 10
30.482958
 20
89.455249
 30
0.0
 10
33.685855
 20
91.470048
 30
0.0
 10
37.170761
 20
91.114146
 30
0.0
  0
SPLINE
  5
15e
100
AcDbEntity
  8
Layer_1
 62
7
100
AcDbSpline
 70
8
 71
3
 72
8
 73
4
 74
0
 40
0
 40
0
 40
0
 40
0
 40
1
 40
1
 40
1
 40
1
 10
37.170761
 20
91.114146
 30
0.0
 10
37.785599
 20
91.195451
 30
0.0
 10
38.199133
 20
90.502855
 30
0.0
 10
38.705725
 20
90.237109
 30
0.0
  0
SPLINE
  5
15f
100
AcDbEntity
  8
Layer_1
 62
7
100
AcDbSpline
 70
8
 71
3
 72
8
 73
4
 74
0
 40
0
 40
0
 40
0
 40
0
 40
1
 40
1
 40
1
 40
1
 10
37.536303
 20
88.483033
 30
0.0
 10
38.751312
 20
88.891937
 30
0.0
 10
39.150411
 20
90.470098
 30
0.0
 10
38.389995
 20
91.350936
 30
0.0
  0
SPLINE
  5
160
100
AcDbEntity
  8
Layer_1
 62
7
100
AcDbSpline
 70
8
 71
3
 72
8
 73
4
 74
0
 40
0
 40
0
 40
0
 40
0
 40
1
 40
1
 40
1
 40
1
 10
38.389995
 20
91.350936
 30
0.0
 10
36.878647
 20
92.674315
 30
0.0
 10
34.700464
 20
92.718080
 30
0.0
 10
32.858625
 20
93.306742
 30
0.0
  0
LWPOLYLINE
  5
161
100
AcDbEntity
  8
Layer_1
 62
7
100
AcDbPolyline
 90
2
 70
0
 10
22.333847
 20
66.118570
 30
0.0
 10
22.333847
 20
66.118570
 30
0.0
  0
ENDSEC
  0
SECTION
  2
OBJECTS
  0
DICTIONARY
  5
C
330
0
100
AcDbDictionary
  3
ACAD_GROUP
350
D
  3
ACAD_MLINESTYLE
350
17
  0
DICTIONARY
  5
D
330
C
100
AcDbDictionary
  0
DICTIONARY
  5
1A
330
C
100
AcDbDictionary
  0
DICTIONARY
  5
17
330
C
100
AcDbDictionary
  3
STANDARD
350
18
  0
DICTIONARY
  5
19
330
C
100
AcDbDictionary
  0
ENDSEC
  0
EOF
